« Back | Home | Guitar Tabs | Print

Stand In Line

Transcribed by Phil Warren and Matt S.

Intro:

(Riff 1:)
e|-------|-------------|---------|------------------|
B|-------|-------------|---------|------------------|
G|-------|-------------|---------|---5---6---7---10-|
D|-------|-------------|---------|------------------|
A|-5h5---|-----------3-|-5-h-5---|-3---4---5---8----|
E|-------|-5-4-3h1-----|---------|------------------|

Play 4x

Verse 1:

Oh get down, getting down so much money in the ground
For the people that don't deserve it now. 

Am D		G6 D

It's a circus we're the clowns as the giant ones disown 
Every bit of something we call home

Am D		G(add9) D

		 
Said it's a pity 'bout the middle class Holden mass 
We get a bit to play around with doesn't really matter 
They kid us with their dole, kid us with the dope 
But generally speaking, nobody's got a hope 
(Riff 2:)
e|-----------------|-------|-----------------|-----------|
B|-----------------|-------|-----------------|-----------|
G|-------0---------|-------|-------0---------|-----------|
D|-----2---4-0---2-|-----0-|-----2---4-0---2-|-----3-----|
A|-0-3---------2---|-3-0---|-0-3---------2---|-3-0-------|
E|-----------------|-------|-----------------|-----------|
(Play Riff 4x)

Chorus:

Am		  G		
Everything's set, everything’s Fine 
       Em			Am   C   D
You've just got to stand in line
Am		  G		
Everything's set, everything’s Fine 
       Em			Am   C   D
You've just got to stand in line

Play Riff 1 (x2)

Then: 
Am D		G D
Verse 2:
(Play Riff 2 throughout verse)
Getting down, getting down, we have to make it now 
Everybody's beaten, everybody's down, oh everybody's down 
So goodbye to the creeps who are making it 
Goodbye to the let it happen stand 
I'm moving out got no doubt they've forgotten twist 'n' shout 
They never ever listen to the man

Chorus

Interlude:
 
Guitar 1: (Riff 3)
 -----------------------------Palm Mute Riff------------------------
e----------------------------------------------------------------------|
B----------------------------------------------------------------------|
G----------------------------------------------------------------------|
D-0-0-0-0-0-0-0-0-0-0-0-0---2--------------------------------------2---|
A------------------------------3-0----------------------------0--3---3-|
E----------------------------------3--2-2-2-2-2-2-2-2-2-2-2-2---------|

Guitar Solo: 
(Second guitar solos over riff 3)

Everything's set, everything’s Fine you've just got to stand in line

C	D 	Am (power chords)

Whhoooooooooooooaaaaaaaaaaaaa!!!!!!!!!!!!!

C	D 	Am (power chords)

Chorus

Riff 1 (x1)

End:
e|------------------------|-------------|-------------|------|
B|------------------------|-------------|-------------|------|
G|------------------------|-----1-3-1---|-------------|------|
D|-3-5--5-------------0-1-|-3-4-------4-|-3-1-0-------|------|
A|------------0-1-2-4-----|-------------|-------4-2-1-|-0----|
E|------------------------|-------------|-------------|------|

Am:	x01220			G6: 	xx5453 	 
D:	xx0232			Gadd9:  xx5435	
Em:	022000			G:	300003			
/ = Slide	
h = Hammer on


« Back | Home | Guitar Tabs | Print