« Back | Home | Guitar Tabs | Print

Too Much Sunshine

Transcribed by Matt S.


Intro:

Riff 1: Play 2x for intro

   C5	 Eb5  E5      G5      B5
e|--------------------------------------------------------------|
B|--------------------------------------------------------------|
G|-5-5---8-8--9-9-9---12-12---4-4--4--4--4-4-4--4-4-------------|
D|-5-5---8-8--9-9-9---12-12---4-4--4--4--4-4-4--4-4-------------|
A|-3-3---6-6--7-7-7---10-10---2-2--2--2--2-2-2--2-2-------------|
E|--------------------------------------------------------------|

Verse 1: Play Riff 1. throughout

havenıt had so much fun since my daddy
took the V 8 away
light a spark in the dark take a mark
itıs resurrection day
itıs a breeze timorese apec speak
wear batik seen not heard

Bridge:

Riff 2: Play throughout bridge

   G#		  E		B		F#
e|--------------------------------------------------------------|
B|--------------------------------------------------------------|
G|------5--4-----------5--4-----------5--4-----------4--6-------|
D|-6--------------2-----------------------------4---------------|
A|------------------------------2-------------------------------|
E|--------------------------------------------------------------|

well we do the same things that we always do
nothing changes but the colour changes you
I donıt come to bury you
the trouble is with you

Chorus:
       G#       E	  B	   F#
We got too much sunshine (too much sunshine)            

       G#       E	  B	   F#
We got too much sunshine (too much sunshine)    

       G#       E	  B	   F#
We got too much sunshine (too much sunshine)  


Verse 2: Play Riff 1. throughout 

have you ever built your house
in a town called pissitaway
you were dreaming of marinas
with a crown you were king for a day
saw a man with a reason any season
got a bird in his hand


Bridge: Play Riff 2. Throughout

well we do the same things that we always do
nothing changes but the channel changes view
well the trouble with you has been
you can sleep but you canıt dream

CHORUS

Solo: 
Some of this may not be correct but it sounds ok

e|-3--2--0-----------0--2----3--2--0-----------2--3-------------|
B|----------3-0---3-------------------3-------------------------|
G|-------------4-------------------------4--2-------------------|
D|--------------------------------------------------------------|
A|--------------------------------------------------------------|
E|--------------------------------------------------------------|

e|-3--2--0-----------0--2----3--2--0-----------2--3-------------|
B|----------3-0---3-------------------3-------------------------|
G|-------------4-------------------------4--2-------------------|
D|--------------------------------------------------------------|
A|--------------------------------------------------------------|
E|--------------------------------------------------------------|

e|-3--2--0-----------0--2----3--2--0-----------2--3-------------|
B|----------3-0---3-------------------3-------------------------|
G|-------------4-------------------------4--2-------------------|
D|--------------------------------------------------------------|
A|--------------------------------------------------------------|
E|--------------------------------------------------------------|

e|-3--2--0-----------0--2----3--2--0----------------------------|
B|----------3-0---3-------------------3-------------------------|
G|-------------4-------------------------4--2-------------------|
D|---------------------------------------------2h4--4-----------|
A|--------------------------------------------------------------|
E|--------------------------------------------------------------|

e|-0-8-0-7-0-8-0-7-0-8-0-7-8-7-0-8-0-7-0-8-0-7-0-8-0-7-0--------|
B|--------------------------------------------------------------|
G|--------------------------------------------------------------|
D|--------------------------------------------------------------|
A|--------------------------------------------------------------|
E|--------------------------------------------------------------|

e|-8-7-6-7---8-7-6-7---8--6-7---0-8--6-7------8-8---8/10-10-----|
B|---------8---------8--------8----------8--8-8-8-8-8/10-10-----|
G|--------------------------------------------------------------|
D|--------------------------------------------------------------|
A|--------------------------------------------------------------|
E|--------------------------------------------------------------|

   too much sunshine         (too much sunshine)   
e|-3--2--0-----------0--2----3--2--0----------------------------|
B|----------3-0---3-------------------3-------------------------|
G|-------------4-------------------------4--2-------------------|
D|---------------------------------------------2h4--4-----------|
A|--------------------------------------------------------------|
E|--------------------------------------------------------------|

  too much sunshine         (too much sunshine)   
e|-3--2--0-----------0--2---------------------------------------|
B|----------3-0---3---------------------------------------------|
G|-------------4------------------------------------------------|
D|---------------------------5--4--2----------------------------|
A|------------------------------------5--2--0-------------------|
E|---------------------------------------------2--3-------------|

CHORUS X2 till end


« Back | Home | Guitar Tabs | Print