« Back | Home | Guitar Tabs | Print

Mosquito March

Transcribed by Matt S.


Intro:

Riff 1:
e|--------------------------------------------------------------|
B|--------------------------------------------------------------|
G|--------------------------------------------------------------|
D|-4--2--0-----------0--2---4--2--0-----------0--2--------------|
A|----------4--2--4------------------4--2--4--------------------|
E|--------------------------------------------------------------|

e|--------------------------------------------------------------|
B|--------------------------------------------------------------|
G|--------------------------------------------------------------|
D|-4--2--5-4-2--------0--2---4--2--5-4-2--------0--2------------|
A|--------------2--4----------------------2--4------------------|
E|--------------------------------------------------------------|

e|--------------------------------------------------------------|
B|--------------------------------------------------------------|
G|--------------------------------------------------------------|
D|-4--2--0-----------0--2---4--2--0-----------0--2--------------|
A|----------4--2--4------------------4--2--4--------------------|
E|--------------------------------------------------------------|

e|--------------------------------------------------------------------------|
B|--------------------------------------------------------------------------|
G|--------------------------------------------------------------------------|
D|-4--2--5-4-2--------0--2---4--2--5-4-2--------0----------0-----------0--2-|
A|--------------2--4----------------------2--4-----4--2--4----4--2--4-------|
E|--------------------------------------------------------------------------|

Verse 1:

Riff 2: Play throughout verse Palm muted

   B5	 G5    B5    E5      B5	   G5    B5    E5
e|<-----------------------PALM MUTE---------------------------->|
B|--------------------------------------------------------------|
G|-4-4-4-------4-4-4---------4-4-4-------4-4-4------------------|
D|-4-4-4-5-5-5-4-4-4-2-2-2---4-4-4-5-5-5-4-4-4-2-2-2------------|
A|-2-2-2-5-5-5-2-2-2-2-2-2---2-2-2-5-5-5-2-2-2-2-2-2------------|
E|-------3-3-3-------0-0-0---------3-3-3-------0-0-0------------|
when they march 
when they march over fields
over fields of green

Pre Chorus:
Riff 3.
Play 2x	   	   	   	 	 	 	F#5
e|-----------------------------------------------------<--PALM MUTE-->|
B|--------------------------------------------------------------------|
G|-/4--2--0------------/4--2--0------/4--2--0-------------------------|
D|-----------4--2--0-------------4b------------4--2--0--4-4-4-4-4-4-4-|
A|------------------------------------------------------4-4-4-4-4-4-4-|
E|------------------------------------------------------2-2-2-2-2-2-2-|

Chorus:
Play Riff 1.

 walking in the wilderness no future to the question you might
e|--------------------------------------------------------------|
B|--------------------------------------------------------------|
G|--------------------------------------------------------------|
D|-4--2--0-----------0--2---4--2--0-----------0--2--------------|
A|----------4--2--4------------------4--2--4--------------------|
E|--------------------------------------------------------------|

  get a simple answer        get a simple answer
e|--------------------------------------------------------------|
B|--------------------------------------------------------------|
G|--------------------------------------------------------------|
D|-4--2--5-4-2--------0--2---4--2--5-4-2--------0--2------------|
A|--------------2--4----------------------2--4------------------|
E|--------------------------------------------------------------|

   walking in the wilderness youčre naked now just skin and sand youčll
e|--------------------------------------------------------------|
B|--------------------------------------------------------------|
G|--------------------------------------------------------------|
D|-4--2--0-----------0--2---4--2--0-----------0--2--------------|
A|----------4--2--4------------------4--2--4--------------------|
E|--------------------------------------------------------------|

   get a simple answer  get a simple answer
e|--------------------------------------------------------------------------|
B|--------------------------------------------------------------------------|
G|--------------------------------------------------------------------------|
D|-4--2--5-4-2--------0--2---4--2--5-4-2--------0----------0-----------0--2-|
A|--------------2--4----------------------2--4-----4--2--4----4--2--4-------|
E|--------------------------------------------------------------------------|

Verse 2:

Play Riff 2 throughout verse Palm muted:

see the king see the king of happiness
see the king of happiness in the light
the light you can see him crawl
see the king of happiness

Pre Chorus:
Riff 3.
Play 2x	   	

Last Chorus:
Riff 1:
 walking in the wilderness no future to the question you might
e|--------------------------------------------------------------|
B|--------------------------------------------------------------|
G|--------------------------------------------------------------|
D|-4--2--0-----------0--2---4--2--0-----------0--2--------------|
A|----------4--2--4------------------4--2--4--------------------|
E|--------------------------------------------------------------|

  get a simple answer        get a simple answer
e|--------------------------------------------------------------|
B|--------------------------------------------------------------|
G|--------------------------------------------------------------|
D|-4--2--5-4-2--------0--2---4--2--5-4-2--------0--2------------|
A|--------------2--4----------------------2--4------------------|
E|--------------------------------------------------------------|

  walking in the wilderness the endless distance you don't need to
e|--------------------------------------------------------------|
B|--------------------------------------------------------------|
G|--------------------------------------------------------------|
D|-4--2--0-----------0--2---4--2--0-----------0--2--------------|
A|----------4--2--4------------------4--2--4--------------------|
E|--------------------------------------------------------------|

  get a simple answer        get a simple answer
e|--------------------------------------------------------------|
B|--------------------------------------------------------------|
G|--------------------------------------------------------------|
D|-4--2--5-4-2--------0--2---4--2--5-4-2--------0--2------------|
A|--------------2--4----------------------2--4------------------|
E|--------------------------------------------------------------|
   past the point of no return you're like a dog without a bone
e|--------------------------------------------------------------|
B|--------------------------------------------------------------|
G|--------------------------------------------------------------|
D|-4--2--0-----------0--2---4--2--0-----------0--2--------------|
A|----------4--2--4------------------4--2--4--------------------|
E|--------------------------------------------------------------|

   so get a simple answer  get a simple answer
e|--------------------------------------------------------------|
B|--------------------------------------------------------------|
G|--------------------------------------------------------------|
D|-4--2--5-4-2--------0--2---4--2--5-4-2--------0----------0----|
A|--------------2--4----------------------2--4-----4--2--4---4--|
E|--------------------------------------------------------------|
					E5
e|--------------------------------------------------------------|
B|--------------------------------------------------------------|
G|--------------------------------------------------------------|
D|-------0--2--------0----------0--2----2-----------------------|
A|-2--4--------2--4----4--2--4----------2-----------------------|
E|--------------------------------------0-----------------------|

« Back | Home | Guitar Tabs | Print