« Back | Home | Guitar Tabs | Print

One Too Many Times

Transcribed by Matt S.

Intro: X2
    B           E           B           F#
e|--------------2h4p2p0----------------------------------------|
B|--2h4p2p0-----------------2h4p2p0----------------------------|
G|--------------------------------------1h3p1------------------|
D|--------------------------------------------4----------------|
A|-------------------------------------------------------------|
E|-------------------------------------------------------------|

    B           E           B           F#
e|--------------2h4p2p0----------------------------------------|
B|--2h4p2p0-----------------2h4p2p0----------------------------|
G|--------------------------------------1h3p1------------------|
D|--------------------------------------------4----------------|
A|-------------------------------------------------------------|
E|-------------------------------------------------------------|

Bridge:

B

Verse 1:
B
  She was the golden summer wine
B               E		F#  
  And now shes black and blue resigned
B          E		     B	     E  
  He took advantage like the spider, helpless   
D         F#   B  
  One too many times

    B           E           B           F#
e|--------------2h4p2p0----------------------------------------|
B|--2h4p2p0-----------------2h4p2p0----------------------------|
G|--------------------------------------1h3p1------------------|
D|--------------------------------------------4----------------|
A|-------------------------------------------------------------|
E|-------------------------------------------------------------|

Verse 2:
B
  You had to go ahead and sing
B		E		F#	
  You had to steal that diamond ring
B          E		     B	     E  
  Upon the headstone so inscribed, they cried
D         F#   B  
  One too many times

Solo:
e|---------7--6--4-2-----------------------7--6--4-2------------|
B|-0h2--5------------4----4/5-------0h2--5-------------2--------|
G|--------------------------------------------------------------|
D|--------------------------------------------------------------|
A|--------------------------------------------------------------|
E|--------------------------------------------------------------|

e|---------7--6--4-2-4--2--0----------------------------------------|
B|-0h2--5---------------------4b----3--3--3--3--2--2--2--2--0-0-0-0-|
G|---------------------------------2--2--2--2--3--3--3--3--4-4-4-4--|
D|--------------------------------0--0--0--0--4--4--4--4------------|
A|------------------------------------------------------------------|
E|------------------------------------------------------------------|

Verse 3:
B
  We are so human, were so small
B		E		F#	
  Were always coming back for more
B          E		     B	     E  
  A second helping third and fourth, its gone
D         F#   B  
  One too many times
D         F#   B  
  One too many times

D 	 F#	  B

End:
    B           E           B           F#
e|--------------2h4p2p0----------------------------------------|
B|--2h4p2p0-----------------2h4p2p0----------------------------|
G|--------------------------------------1h3p1---------1-1--3-3-|
D|--------------------------------------------4--4-4-----------|
A|-------------------------------------------------------------|
E|-------------------------------------------------------------|

    B           E           B           F#     B
e|--------------2h4p2p0----------------------------------------|
B|--2h4p2p0-----------------4--4-4--2--0-------0--2------------|
G|----------------------------------------3--3-------3--4b-----|
D|-------------------------------------------------------------|
A|-------------------------------------------------------------|
E|-------------------------------------------------------------|

« Back | Home | Guitar Tabs | Print