« Back | Home | Guitar Tabs | Print

Tin Legs and Tin Mines

Transcribed by Matt S. and Damien Wieland


INTRO
e|----------|---------|		 	e|----------|---------|
B|-----0----|----0----|<-Play 4 	B|-----0----|----0----|
G|----3--3--|-----3---|	times	 	G|----3--3--|-----3---|
D|--------4-|-------4-|		 	D|--------4-|-------4-|
A|----------|---------|		 	A|----------|---------|
E|-0--------|-2-------|		 	E|-4--------|-4-------|

e|----------|---------|----------|---------|----------|---------|
B|-----0----|----0----|-----0----|----0----|-----0----|----0----|
G|----3--3--|-----3---|----3--3--|-----3---|----3--3--|-----3---|
D|--------4-|-------4-|--------4-|-------4-|--------4-|-------4-|
A|----------|---------|----------|---------|-6--------|-6-------|
E|-0--------|-2-------|-0--------|-2-------|----------|---------|

e|----------|---------|----------|---------|
B|-----0----|----0----|-----0----|----0----|
G|----3--3--|-----3---|----3--3--|-----3---|
D|--------4-|-------4-|--------4-|-------4-|
A|----------|---------|----------|---------|
E|-0--------|-2-------|-0--------|-2-------|

LEAD (played on piano, arranged for guitar) 
e|---------2--------------------4--6--7--6--4------------------|
B|---------------------------7---------------7----4----------7-|
G|-------3-------------------------------------------6--4------|
D|-------------------------------------------------------------|
A|-------------------------------------------------------------|
E|-0-----------------------------------------------------------|

VERSE 1:

B				C#m	
I'm gonna wait for the moment to come 
B					C#m
I'm gonna wait till we all stop from running 
A				   E	D#dim/F
Boxed in like candles, polar bear pride 
A					E	
Turning to terror as the script is read out 
B
Unwilling actors, accomplished protractors will shout 
B				C#m	
I'm gonna wait till we reach the sky 
B				C#m
Tin legs and tin mines, anyone cries 
A				E     D#dim/F	
Cry in the hope that there'll be tomorrow 
A				E
Waiting around there must be a time 
B				     D#dim/F
Time to start thinking and working it out 
C#m               A			      Bm   
Come with me now, Try with me now, we'll be laughing 

Chorus

G D    Em   C	Bb  			    F 		     
    			Who's running the world today?

G D    Em   C	Bb  			    F 		G G  D  G G  D
    			Who's running the world today?
VERSE 2:

B				     C#m
I'm gonna wait till they knock on my door 
B				     C#m
I'm gonna wait till they dig up the floor boards 
A				E    D#dim/F
Poland in Disneyland, wet dream control 
A		              E			
Super computer, the new contraband 
B				D#dim/F	
I'm gonna wait, we must make a stand 
C#m		  A			   Bm
Come with me now, Try with me now one more time 

LAST CHORUS:

G D    Em   C	Bb  			    F 		     
    			Who's running the world today?
G D    Em   C	Bb  			    F 		     
    			Who's running the world today? 
G D    Em   C	Bb  			    F 		     
    			Who's running the world today?
G D    Em   C	Bb  			    F 		     
    			Who's running the world today?
G D    Em   C	Bb  			    F 		     
    			Who's running the world today? 
G D    Em   C	Bb  			    F   	G G  D  G G  D				    
			Who's running the world today?

End:

|----------|---------|
|-----0----|----0----|
|----3--3--|-----3---|< Play 7 times till the end with lead riff
|--------4-|-------4-|
|----------|---------|
|-0--------|-2-------|

A:  	x02220 	Bb     : x13331
B:  	x24442	Bm     : x24432
C:	032010	C#m    : x46654
D:	xx0232	Em     : 022000
E:	022100	D#dim/F: x04545
F:	133211	G      : 320003

« Back | Home | Guitar Tabs | Print